You are here: home > Tononkira

Tondrom-peo

Lohateny : https://tononkira.serasera.org/hira
Nampiditra tondrompeo : nanourand
Daty : 05/09/2005

Title : Andro Ririnina
Artist : Mahaleo
Tab : Nanou RANDRIAMANANTENA
E-mail : nanourand@hotmail.com
--------------------------------

Accords:
--------
D D* Dadd9 F#m7 Fm Bm Em A A7
-2- -10- -12- -2- -1- -2- -0- -0- -3-
-3- -10- -10- -2- -1- -3- -0- -2- -2-
-2- -11- -11- -2- -1- -4- -0- -2- -2-
-4- -0- -0- -2- --- -4- -2- -2- -2-
-5- --- --- -4- -3- -2- -2- -0- -0-
--- --- --- --- --- --- -0- --- ---


intro :
-------

D*                  Dadd9                 D    ^
|-10----10----10----------12--12----12----10--10-10--|
|-10----10-------10----10-----10----10----10--10-10--|
|----11----11-------11-----------11----11------------|  (x2)
|-0---------------------------------------0----------|
|----------------------------------------------------|
|----------------------------------------------------|

couplet :
---------

D             F#m7       Fm Em
  Tsy ny fanananao harena
Em                  A      D
  No hampiova ny fitiavako
D                 F#m7           Fm Em
  Fa na misy na tsy misy volamena
Em             A           D
  Ianao no mba hany firavako


Em             A
  Ity foko efa tery
D                Bm
  Feno fitiavana anao
Em                    A      
  Nahoana eh!! no dia havela irery
A                     D
  Moa va tsy mendrika anao?


D                F#m7         Fm
  Na ny masoandro aza aki eh!!
Em              A
  Tsy mamiratra noho ianao
D                F#m7
  Maizimaizina ny aty eh!!
Em         A          D  
  Raha toa ka hilaozanao

interlude :
-----------
   D               D           D       Dadd9         D
|--10--------------10-------|--10------------12------10----|
|------10------10-----------|------10-----10-----10--------|
|----------11---------------|----------11------------------|
|--0---------------0--------|--0--------------0------------|
|---------------------------|------------------------------|
|---------------------------|------------------------------|



Em              A    A/G/F#m
  Feno rahona ny lanitra
F#m            Bm
  Rava ny faniriako
Em         A       A/G  
  Naleonao nangarika
F#m                     Em     A7 A
  Toy izay hanatrika ny hakiviako



D                   F#m7
  Lasa ianao toy ny andro ririnina
Em                A           D
  Nitondra tsitra tsy taratra
D            F#m7            
  Izaho kosa mitomany toa zaza nariana
Em             A              D
  Irery tratra andro fahavaratra



D            F#m7
  Tsy ny helanelan-tany
Em                A
  No hanova izato foko
D               F#m7
  Eny na dia lavitra ihany
Em         A        D
  Ianao no ho tsarovako

outro:
------
D* Dadd9 D*


--------------------------------------
(c) août 2005 - Nanou RANDRIAMANANTENA

Tondrom-peo hafa

Hampiditra tondrom-peo hafa