You are here: home > Tononkira

Tondrom-peo AMBONDRONA

Lohateny : AMBONDRONA
Nampiditra tondrompeo : jazz666
Daty : 25/04/2005

(bass riff)--------------------------                          
Toerana taloha nahitana ny hatanorana (riff1 guitare)
(bass riff)--------------------------
Toerana fahiny nandalovan'ny fahazazana (riff2 guitare)
(bass riff)-------------------------------
Toeran'ny fahendrena nitoeran'ny  hadalana (riff1 guitare)
(bass riff)-------------------------------
Nahitana ny mangidy sy ny nahitana ny mamy (riff2 guitare)

bass riff: isaky ny tonony ('zany oe miverina in-4)
e---------------------------------------
B---------------------------------------
G---------------------------------------
D---------------------------------------
A------------------------0--------------
E-0-0-0-0-2-3-2--0-0-0-0---3-2----------
guitare:(riff1)
e------------------------------------
B------------------------------------
G------------------------------------
D-9-9-9-7-9--9-7-9--9-7-9-15---------
A-7-7-7-5-7--7-5-7--7-5-7-10---------
E------------------------------------
guitare:(riff2)
e------------------------------------
B------------------------------------
G------------------------------------
D-9-9-9-7-9--9-7-9--9-7--14-12-9-----
A-7-7-7-5-7--7-5-7--7-5--12-10-7-----
E------------------------------------

Bm        Em          Bm              Em
Nilalaovana fahiny    raha mbola tsy nanan-tsiny
Bm          C                Am          (riff3)
Nahalalana ny fitia ,taty aoriana ary ankehitriny
guitare:(riff3)
e-------------------------------------
B-------------------------------------
G-------------------------------------
D-------------------------------------
A-9/10-9---9/10-9---9/10-7-9---9/10-9-
E-7/8--7---7/8--7---7/8--5-7---7/8--7-


G5 F#5       E5                  A5          D5
             Tsinona izany,fa ilay tanàna, atolotray mpivazo
                   G5 F#5          E5             C5  D5    E5
             Ho an'ireo akama  sy ho an'ireo izay hiaraka aminay
             oh oh oh oh



Botry lava be izay mitondra ny anarany any;
Misy vavam-biby raha midina ambanimbany

Nilalaovana fahiny (raha) raha mbola tsy nanan-tsiny
Nahalalana ny fitia,taty aoriana ary ankehitriny
Tsinona izany,fa ilay tanàna ,atolotray mpivazo
Ho an'ireo akama sy ho an'ireo izay hiaraka aminay
oh oh oh oh

Ho anareo mpanotrona,na andro izao na mora
Indreto izay mivondrona, vazo an'AMBONDRONA
Hira iray ,tanàna nahabe ,oh oh oh oh

Tsinona izany,fa ilay tanàna ,atolotray mpivazo
Ho an'ireo akama syho an'ireo izay hiaraka aminay
oh oh oh oh

Ho anareo mpanotrona,na andro izao na mora
Indreto izay mivondrona, vazo an'AMBONDRONA
Hira iray ,tanàna nahabe ,oh oh oh oh
Tanàna nahabe,oh oh oh